ISO-10303-21;
HEADER;
/* Generated by software containing ST-Developer
 * from STEP Tools, Inc. (www.steptools.com) 
 */

FILE_DESCRIPTION(
/* description */ (''),
/* implementation_level */ '2;1');

FILE_NAME(
/* name */ 
'D:\\VORON-master\\Inventor\\BuildAsPrinted\\Dual QR Extruder\\40mm_sp
iral_shroud_opp.stp',
/* time_stamp */ '2018-02-13T22:02:12-08:00',
/* author */ ('Andrew'),
/* organization */ (''),
/* preprocessor_version */ 'ST-DEVELOPER v15.6',
/* originating_system */ 'Autodesk Inventor 2015',
/* authorisation */ '');

FILE_SCHEMA (('AUTOMOTIVE_DESIGN { 1 0 10303 214 3 1 1 }'));
ENDSEC;

DATA;
#10=MECHANICAL_DESIGN_GEOMETRIC_PRESENTATION_REPRESENTATION('',(#16,#13,
#14,#15),#318);
#11=SHAPE_REPRESENTATION_RELATIONSHIP('SRR','None',#327,#12);
#12=ADVANCED_BREP_SHAPE_REPRESENTATION($,(#17,#18,#19,#20),#317);
#13=STYLED_ITEM('',(#336),#17);
#14=STYLED_ITEM('',(#336),#18);
#15=STYLED_ITEM('',(#336),#19);
#16=STYLED_ITEM('',(#336),#20);
#17=MANIFOLD_SOLID_BREP('Solid1',#171);
#18=MANIFOLD_SOLID_BREP('Solid1',#172);
#19=MANIFOLD_SOLID_BREP('Solid1',#173);
#20=MANIFOLD_SOLID_BREP('Solid1',#174);
#21=PLANE('',#179);
#22=PLANE('',#180);
#23=PLANE('',#184);
#24=PLANE('',#188);
#25=PLANE('',#189);
#26=PLANE('',#194);
#27=PLANE('',#196);
#28=PLANE('',#200);
#29=PLANE('',#201);
#30=PLANE('',#205);
#31=PLANE('',#206);
#32=FACE_BOUND('',#57,.T.);
#33=FACE_BOUND('',#61,.T.);
#34=FACE_BOUND('',#64,.T.);
#35=FACE_BOUND('',#67,.T.);
#36=FACE_BOUND('',#69,.T.);
#37=FACE_BOUND('',#73,.T.);
#38=FACE_BOUND('',#77,.T.);
#39=FACE_OUTER_BOUND('',#56,.T.);
#40=FACE_OUTER_BOUND('',#58,.T.);
#41=FACE_OUTER_BOUND('',#59,.T.);
#42=FACE_OUTER_BOUND('',#60,.T.);
#43=FACE_OUTER_BOUND('',#62,.T.);
#44=FACE_OUTER_BOUND('',#63,.T.);
#45=FACE_OUTER_BOUND('',#65,.T.);
#46=FACE_OUTER_BOUND('',#66,.T.);
#47=FACE_OUTER_BOUND('',#68,.T.);
#48=FACE_OUTER_BOUND('',#70,.T.);
#49=FACE_OUTER_BOUND('',#71,.T.);
#50=FACE_OUTER_BOUND('',#72,.T.);
#51=FACE_OUTER_BOUND('',#74,.T.);
#52=FACE_OUTER_BOUND('',#75,.T.);
#53=FACE_OUTER_BOUND('',#76,.T.);
#54=FACE_OUTER_BOUND('',#78,.T.);
#55=FACE_OUTER_BOUND('',#79,.T.);
#56=EDGE_LOOP('',(#120));
#57=EDGE_LOOP('',(#121));
#58=EDGE_LOOP('',(#122));
#59=EDGE_LOOP('',(#123));
#60=EDGE_LOOP('',(#124));
#61=EDGE_LOOP('',(#125));
#62=EDGE_LOOP('',(#126));
#63=EDGE_LOOP('',(#127));
#64=EDGE_LOOP('',(#128));
#65=EDGE_LOOP('',(#129));
#66=EDGE_LOOP('',(#130));
#67=EDGE_LOOP('',(#131));
#68=EDGE_LOOP('',(#132));
#69=EDGE_LOOP('',(#133,#134));
#70=EDGE_LOOP('',(#135,#136));
#71=EDGE_LOOP('',(#137));
#72=EDGE_LOOP('',(#138,#139));
#73=EDGE_LOOP('',(#140));
#74=EDGE_LOOP('',(#141));
#75=EDGE_LOOP('',(#142,#143));
#76=EDGE_LOOP('',(#144));
#77=EDGE_LOOP('',(#145));
#78=EDGE_LOOP('',(#146));
#79=EDGE_LOOP('',(#147));
#80=CIRCLE('',#177,2.9417636075134);
#81=CIRCLE('',#178,2.9417636075134);
#82=CIRCLE('',#182,1.27275259360505);
#83=CIRCLE('',#183,1.27275259360505);
#84=CIRCLE('',#186,1.580774993785);
#85=CIRCLE('',#187,1.580774993785);
#86=CIRCLE('',#191,1.30074965310652);
#87=CIRCLE('',#192,1.30074965310652);
#88=CIRCLE('',#193,1.30074965310652);
#89=CIRCLE('',#195,1.42058906754841);
#90=CIRCLE('',#198,1.42058906754841);
#91=CIRCLE('',#199,1.42058906754841);
#92=CIRCLE('',#203,2.82546644228814);
#93=CIRCLE('',#204,2.82546644228814);
#94=VERTEX_POINT('',#273);
#95=VERTEX_POINT('',#275);
#96=VERTEX_POINT('',#280);
#97=VERTEX_POINT('',#282);
#98=VERTEX_POINT('',#286);
#99=VERTEX_POINT('',#288);
#100=VERTEX_POINT('',#293);
#101=VERTEX_POINT('',#295);
#102=VERTEX_POINT('',#296);
#103=VERTEX_POINT('',#304);
#104=VERTEX_POINT('',#309);
#105=VERTEX_POINT('',#311);
#106=EDGE_CURVE('',#94,#94,#80,.T.);
#107=EDGE_CURVE('',#95,#95,#81,.T.);
#108=EDGE_CURVE('',#96,#96,#82,.T.);
#109=EDGE_CURVE('',#97,#97,#83,.T.);
#110=EDGE_CURVE('',#98,#98,#84,.T.);
#111=EDGE_CURVE('',#99,#99,#85,.T.);
#112=EDGE_CURVE('',#100,#100,#86,.T.);
#113=EDGE_CURVE('',#101,#102,#87,.T.);
#114=EDGE_CURVE('',#102,#101,#88,.T.);
#115=EDGE_CURVE('',#101,#102,#89,.T.);
#116=EDGE_CURVE('',#102,#101,#90,.T.);
#117=EDGE_CURVE('',#103,#103,#91,.T.);
#118=EDGE_CURVE('',#104,#104,#92,.T.);
#119=EDGE_CURVE('',#105,#105,#93,.T.);
#120=ORIENTED_EDGE('',*,*,#106,.F.);
#121=ORIENTED_EDGE('',*,*,#107,.F.);
#122=ORIENTED_EDGE('',*,*,#107,.T.);
#123=ORIENTED_EDGE('',*,*,#106,.T.);
#124=ORIENTED_EDGE('',*,*,#108,.F.);
#125=ORIENTED_EDGE('',*,*,#109,.F.);
#126=ORIENTED_EDGE('',*,*,#108,.T.);
#127=ORIENTED_EDGE('',*,*,#110,.F.);
#128=ORIENTED_EDGE('',*,*,#111,.F.);
#129=ORIENTED_EDGE('',*,*,#111,.T.);
#130=ORIENTED_EDGE('',*,*,#110,.T.);
#131=ORIENTED_EDGE('',*,*,#109,.T.);
#132=ORIENTED_EDGE('',*,*,#112,.F.);
#133=ORIENTED_EDGE('',*,*,#113,.F.);
#134=ORIENTED_EDGE('',*,*,#114,.F.);
#135=ORIENTED_EDGE('',*,*,#115,.T.);
#136=ORIENTED_EDGE('',*,*,#114,.T.);
#137=ORIENTED_EDGE('',*,*,#112,.T.);
#138=ORIENTED_EDGE('',*,*,#116,.F.);
#139=ORIENTED_EDGE('',*,*,#115,.F.);
#140=ORIENTED_EDGE('',*,*,#117,.F.);
#141=ORIENTED_EDGE('',*,*,#117,.T.);
#142=ORIENTED_EDGE('',*,*,#113,.T.);
#143=ORIENTED_EDGE('',*,*,#116,.T.);
#144=ORIENTED_EDGE('',*,*,#118,.F.);
#145=ORIENTED_EDGE('',*,*,#119,.F.);
#146=ORIENTED_EDGE('',*,*,#119,.T.);
#147=ORIENTED_EDGE('',*,*,#118,.T.);
#148=CYLINDRICAL_SURFACE('',#176,2.9417636075134);
#149=CYLINDRICAL_SURFACE('',#181,1.27275259360505);
#150=CYLINDRICAL_SURFACE('',#185,1.580774993785);
#151=CYLINDRICAL_SURFACE('',#190,1.30074965310652);
#152=CYLINDRICAL_SURFACE('',#197,1.42058906754841);
#153=CYLINDRICAL_SURFACE('',#202,2.82546644228814);
#154=ADVANCED_FACE('',(#39,#32),#148,.T.);
#155=ADVANCED_FACE('',(#40),#21,.F.);
#156=ADVANCED_FACE('',(#41),#22,.T.);
#157=ADVANCED_FACE('',(#42,#33),#149,.T.);
#158=ADVANCED_FACE('',(#43),#23,.T.);
#159=ADVANCED_FACE('',(#44,#34),#150,.T.);
#160=ADVANCED_FACE('',(#45),#24,.F.);
#161=ADVANCED_FACE('',(#46,#35),#25,.T.);
#162=ADVANCED_FACE('',(#47,#36),#151,.T.);
#163=ADVANCED_FACE('',(#48),#26,.F.);
#164=ADVANCED_FACE('',(#49),#27,.T.);
#165=ADVANCED_FACE('',(#50,#37),#152,.T.);
#166=ADVANCED_FACE('',(#51),#28,.F.);
#167=ADVANCED_FACE('',(#52),#29,.T.);
#168=ADVANCED_FACE('',(#53,#38),#153,.T.);
#169=ADVANCED_FACE('',(#54),#30,.F.);
#170=ADVANCED_FACE('',(#55),#31,.T.);
#171=CLOSED_SHELL('',(#154,#155,#156));
#172=CLOSED_SHELL('',(#157,#158,#159,#160,#161));
#173=CLOSED_SHELL('',(#162,#163,#164,#165,#166,#167));
#174=CLOSED_SHELL('',(#168,#169,#170));
#175=AXIS2_PLACEMENT_3D('placement',#271,#207,#208);
#176=AXIS2_PLACEMENT_3D('',#272,#209,#210);
#177=AXIS2_PLACEMENT_3D('',#274,#211,#212);
#178=AXIS2_PLACEMENT_3D('',#276,#213,#214);
#179=AXIS2_PLACEMENT_3D('',#277,#215,#216);
#180=AXIS2_PLACEMENT_3D('',#278,#217,#218);
#181=AXIS2_PLACEMENT_3D('',#279,#219,#220);
#182=AXIS2_PLACEMENT_3D('',#281,#221,#222);
#183=AXIS2_PLACEMENT_3D('',#283,#223,#224);
#184=AXIS2_PLACEMENT_3D('',#284,#225,#226);
#185=AXIS2_PLACEMENT_3D('',#285,#227,#228);
#186=AXIS2_PLACEMENT_3D('',#287,#229,#230);
#187=AXIS2_PLACEMENT_3D('',#289,#231,#232);
#188=AXIS2_PLACEMENT_3D('',#290,#233,#234);
#189=AXIS2_PLACEMENT_3D('',#291,#235,#236);
#190=AXIS2_PLACEMENT_3D('',#292,#237,#238);
#191=AXIS2_PLACEMENT_3D('',#294,#239,#240);
#192=AXIS2_PLACEMENT_3D('',#297,#241,#242);
#193=AXIS2_PLACEMENT_3D('',#298,#243,#244);
#194=AXIS2_PLACEMENT_3D('',#299,#245,#246);
#195=AXIS2_PLACEMENT_3D('',#300,#247,#248);
#196=AXIS2_PLACEMENT_3D('',#301,#249,#250);
#197=AXIS2_PLACEMENT_3D('',#302,#251,#252);
#198=AXIS2_PLACEMENT_3D('',#303,#253,#254);
#199=AXIS2_PLACEMENT_3D('',#305,#255,#256);
#200=AXIS2_PLACEMENT_3D('',#306,#257,#258);
#201=AXIS2_PLACEMENT_3D('',#307,#259,#260);
#202=AXIS2_PLACEMENT_3D('',#308,#261,#262);
#203=AXIS2_PLACEMENT_3D('',#310,#263,#264);
#204=AXIS2_PLACEMENT_3D('',#312,#265,#266);
#205=AXIS2_PLACEMENT_3D('',#313,#267,#268);
#206=AXIS2_PLACEMENT_3D('',#314,#269,#270);
#207=DIRECTION('axis',(0.,0.,1.));
#208=DIRECTION('refdir',(1.,0.,0.));
#209=DIRECTION('center_axis',(0.,0.,1.));
#210=DIRECTION('ref_axis',(-1.,0.,0.));
#211=DIRECTION('center_axis',(0.,0.,1.));
#212=DIRECTION('ref_axis',(-1.,0.,0.));
#213=DIRECTION('center_axis',(0.,0.,-1.));
#214=DIRECTION('ref_axis',(-1.,0.,0.));
#215=DIRECTION('center_axis',(0.,0.,1.));
#216=DIRECTION('ref_axis',(1.,0.,0.));
#217=DIRECTION('center_axis',(0.,0.,1.));
#218=DIRECTION('ref_axis',(1.,0.,0.));
#219=DIRECTION('center_axis',(0.,0.,1.));
#220=DIRECTION('ref_axis',(-1.,0.,0.));
#221=DIRECTION('center_axis',(0.,0.,1.));
#222=DIRECTION('ref_axis',(-1.,0.,0.));
#223=DIRECTION('center_axis',(0.,0.,-1.));
#224=DIRECTION('ref_axis',(-1.,0.,0.));
#225=DIRECTION('center_axis',(0.,0.,1.));
#226=DIRECTION('ref_axis',(1.,0.,0.));
#227=DIRECTION('center_axis',(0.,0.,1.));
#228=DIRECTION('ref_axis',(-1.,0.,0.));
#229=DIRECTION('center_axis',(0.,0.,1.));
#230=DIRECTION('ref_axis',(-1.,0.,0.));
#231=DIRECTION('center_axis',(0.,0.,-1.));
#232=DIRECTION('ref_axis',(-1.,0.,0.));
#233=DIRECTION('center_axis',(0.,0.,1.));
#234=DIRECTION('ref_axis',(1.,0.,0.));
#235=DIRECTION('center_axis',(0.,0.,1.));
#236=DIRECTION('ref_axis',(1.,0.,0.));
#237=DIRECTION('center_axis',(0.,0.,1.));
#238=DIRECTION('ref_axis',(-1.,0.,0.));
#239=DIRECTION('center_axis',(0.,0.,1.));
#240=DIRECTION('ref_axis',(-1.,0.,0.));
#241=DIRECTION('center_axis',(0.,0.,-1.));
#242=DIRECTION('ref_axis',(-1.,0.,0.));
#243=DIRECTION('center_axis',(0.,0.,-1.));
#244=DIRECTION('ref_axis',(-1.,0.,0.));
#245=DIRECTION('center_axis',(0.,0.,1.));
#246=DIRECTION('ref_axis',(1.,0.,0.));
#247=DIRECTION('center_axis',(0.,0.,1.));
#248=DIRECTION('ref_axis',(-1.,0.,0.));
#249=DIRECTION('center_axis',(0.,0.,1.));
#250=DIRECTION('ref_axis',(1.,0.,0.));
#251=DIRECTION('center_axis',(0.,0.,1.));
#252=DIRECTION('ref_axis',(-1.,0.,0.));
#253=DIRECTION('center_axis',(0.,0.,1.));
#254=DIRECTION('ref_axis',(-1.,0.,0.));
#255=DIRECTION('center_axis',(0.,0.,-1.));
#256=DIRECTION('ref_axis',(-1.,0.,0.));
#257=DIRECTION('center_axis',(0.,0.,1.));
#258=DIRECTION('ref_axis',(1.,0.,0.));
#259=DIRECTION('center_axis',(0.,0.,1.));
#260=DIRECTION('ref_axis',(1.,0.,0.));
#261=DIRECTION('center_axis',(0.,0.,1.));
#262=DIRECTION('ref_axis',(-1.,0.,0.));
#263=DIRECTION('center_axis',(0.,0.,1.));
#264=DIRECTION('ref_axis',(-1.,0.,0.));
#265=DIRECTION('center_axis',(0.,0.,-1.));
#266=DIRECTION('ref_axis',(-1.,0.,0.));
#267=DIRECTION('center_axis',(0.,0.,1.));
#268=DIRECTION('ref_axis',(1.,0.,0.));
#269=DIRECTION('center_axis',(0.,0.,1.));
#270=DIRECTION('ref_axis',(1.,0.,0.));
#271=CARTESIAN_POINT('',(0.,0.,0.));
#272=CARTESIAN_POINT('Origin',(35.9025145925911,-7.9091371908797,0.));
#273=CARTESIAN_POINT('',(38.8442782001045,-7.9091371908797,9.));
#274=CARTESIAN_POINT('Origin',(35.9025145925911,-7.9091371908797,9.));
#275=CARTESIAN_POINT('',(38.8442782001045,-7.9091371908797,0.));
#276=CARTESIAN_POINT('Origin',(35.9025145925911,-7.9091371908797,0.));
#277=CARTESIAN_POINT('Origin',(35.9025145925911,-7.9091371908797,0.));
#278=CARTESIAN_POINT('Origin',(35.9025145925911,-7.9091371908797,9.));
#279=CARTESIAN_POINT('Origin',(3.96300698166478,-7.79822398766622,9.));
#280=CARTESIAN_POINT('',(5.23575957526983,-7.79822398766622,16.));
#281=CARTESIAN_POINT('Origin',(3.96300698166478,-7.79822398766622,16.));
#282=CARTESIAN_POINT('',(5.23575957526983,-7.79822398766622,9.));
#283=CARTESIAN_POINT('Origin',(3.96300698166478,-7.79822398766622,9.));
#284=CARTESIAN_POINT('Origin',(3.96300698166478,-7.79822398766622,16.));
#285=CARTESIAN_POINT('Origin',(3.92997678255002,-7.9091371908797,0.));
#286=CARTESIAN_POINT('',(5.51075177633502,-7.9091371908797,9.));
#287=CARTESIAN_POINT('Origin',(3.92997678255002,-7.9091371908797,9.));
#288=CARTESIAN_POINT('',(5.51075177633502,-7.9091371908797,0.));
#289=CARTESIAN_POINT('Origin',(3.92997678255002,-7.9091371908797,0.));
#290=CARTESIAN_POINT('Origin',(3.92997678255002,-7.9091371908797,0.));
#291=CARTESIAN_POINT('Origin',(3.92997678255002,-7.9091371908797,9.));
#292=CARTESIAN_POINT('Origin',(35.7066231269977,24.041064578376,9.));
#293=CARTESIAN_POINT('',(37.0073727801042,24.041064578376,16.));
#294=CARTESIAN_POINT('Origin',(35.7066231269977,24.041064578376,16.));
#295=CARTESIAN_POINT('',(35.8832003285563,25.3297732933098,9.));
#296=CARTESIAN_POINT('',(34.5796360726713,23.3915648944365,9.));
#297=CARTESIAN_POINT('Origin',(35.7066231269977,24.041064578376,9.));
#298=CARTESIAN_POINT('Origin',(35.7066231269977,24.041064578376,9.));
#299=CARTESIAN_POINT('Origin',(35.7066231269977,24.041064578376,9.));
#300=CARTESIAN_POINT('Origin',(35.9025145925911,23.9093155297551,9.));
#301=CARTESIAN_POINT('Origin',(35.7066231269977,24.041064578376,16.));
#302=CARTESIAN_POINT('Origin',(35.9025145925911,23.9093155297551,0.));
#303=CARTESIAN_POINT('Origin',(35.9025145925911,23.9093155297551,9.));
#304=CARTESIAN_POINT('',(37.3231036601395,23.9093155297551,0.));
#305=CARTESIAN_POINT('Origin',(35.9025145925911,23.9093155297551,0.));
#306=CARTESIAN_POINT('Origin',(35.9025145925911,23.9093155297551,0.));
#307=CARTESIAN_POINT('Origin',(35.9025145925911,23.9093155297551,9.));
#308=CARTESIAN_POINT('Origin',(3.92997678255002,23.9093155297551,0.));
#309=CARTESIAN_POINT('',(6.75544322483816,23.9093155297551,9.));
#310=CARTESIAN_POINT('Origin',(3.92997678255002,23.9093155297551,9.));
#311=CARTESIAN_POINT('',(6.75544322483816,23.9093155297551,0.));
#312=CARTESIAN_POINT('Origin',(3.92997678255002,23.9093155297551,0.));
#313=CARTESIAN_POINT('Origin',(3.92997678255002,23.9093155297551,0.));
#314=CARTESIAN_POINT('Origin',(3.92997678255002,23.9093155297551,9.));
#315=UNCERTAINTY_MEASURE_WITH_UNIT(LENGTH_MEASURE(0.01),#319,
'DISTANCE_ACCURACY_VALUE',
'Maximum model space distance between geometric entities at asserted c
onnectivities');
#316=UNCERTAINTY_MEASURE_WITH_UNIT(LENGTH_MEASURE(1.E-6),#319,
'DISTANCE_ACCURACY_VALUE',
'Maximum model space distance between geometric entities at asserted c
onnectivities');
#317=(
GEOMETRIC_REPRESENTATION_CONTEXT(3)
GLOBAL_UNCERTAINTY_ASSIGNED_CONTEXT((#315))
GLOBAL_UNIT_ASSIGNED_CONTEXT((#319,#322,#320))
REPRESENTATION_CONTEXT('','3D')
);
#318=(
GEOMETRIC_REPRESENTATION_CONTEXT(3)
GLOBAL_UNCERTAINTY_ASSIGNED_CONTEXT((#316))
GLOBAL_UNIT_ASSIGNED_CONTEXT((#319,#322,#320))
REPRESENTATION_CONTEXT('','3D')
);
#319=(
LENGTH_UNIT()
NAMED_UNIT(*)
SI_UNIT(.MILLI.,.METRE.)
);
#320=(
NAMED_UNIT(*)
SI_UNIT($,.STERADIAN.)
SOLID_ANGLE_UNIT()
);
#321=DIMENSIONAL_EXPONENTS(0.,0.,0.,0.,0.,0.,0.);
#322=(
CONVERSION_BASED_UNIT('degree',#324)
NAMED_UNIT(#321)
PLANE_ANGLE_UNIT()
);
#323=(
NAMED_UNIT(*)
PLANE_ANGLE_UNIT()
SI_UNIT($,.RADIAN.)
);
#324=PLANE_ANGLE_MEASURE_WITH_UNIT(PLANE_ANGLE_MEASURE(0.01745329252),#323);
#325=SHAPE_DEFINITION_REPRESENTATION(#326,#327);
#326=PRODUCT_DEFINITION_SHAPE('',$,#329);
#327=SHAPE_REPRESENTATION('',(#175),#317);
#328=PRODUCT_DEFINITION_CONTEXT('part definition',#333,'design');
#329=PRODUCT_DEFINITION('40mm_spiral_shroud_opp',
'40mm_spiral_shroud_opp',#330,#328);
#330=PRODUCT_DEFINITION_FORMATION('',$,#335);
#331=PRODUCT_RELATED_PRODUCT_CATEGORY('40mm_spiral_shroud_opp',
'40mm_spiral_shroud_opp',(#335));
#332=APPLICATION_PROTOCOL_DEFINITION('international standard',
'automotive_design',2009,#333);
#333=APPLICATION_CONTEXT(
'Core Data for Automotive Mechanical Design Process');
#334=PRODUCT_CONTEXT('part definition',#333,'mechanical');
#335=PRODUCT('40mm_spiral_shroud_opp','40mm_spiral_shroud_opp',$,(#334));
#336=PRESENTATION_STYLE_ASSIGNMENT((#337));
#337=SURFACE_STYLE_USAGE(.BOTH.,#338);
#338=SURFACE_SIDE_STYLE($,(#339));
#339=SURFACE_STYLE_FILL_AREA(#340);
#340=FILL_AREA_STYLE($,(#341));
#341=FILL_AREA_STYLE_COLOUR($,#342);
#342=COLOUR_RGB('',0.501960784313725,0.,0.);
ENDSEC;
END-ISO-10303-21;
